air ukulele villaverde .pdf


Nom original: air ukulele villaverde.pdf
Titre: Sans titre
Auteur: Raphael Dana

Ce document au format PDF 1.3 a été généré par TextEdit / Mac OS X 10.7.2 Quartz PDFContext, et a été envoyé sur fichier-pdf.fr le 16/01/2012 à 03:49, depuis l'adresse IP 203.185.x.x. La présente page de téléchargement du fichier a été vue 1283 fois.
Taille du document: 15 Ko (1 page).
Confidentialité: fichier public




Télécharger le fichier (PDF)










Aperçu du document


http://www.youtube.com/watch?v=DBFdrLu7o9w
Tunning G C E A

H
-----------7-2-5-3----------------------7-2-5-3---3-2-3-4/5-5-3-2-3-2-1-0-7-5
-3-0-1-2-3-3-3-5-3-2/3-0-12-0-3-0-1-2-3-3-3-2---5-1-1-1-4/5-5-1-1-------1-5-3
-4-0-2-3-4---------3/4-0-12-0-4-0-2-3-4-----2-----0-2-2-4/5-5-0-2-------2-6-5
-------------------------12-----------------2-----2-0-0-4/5-5-2-0-------0-5-4

H
-----------7-2-5-3----------------------7-2-5-3---3-2-3-4/5-5-3-2-3-2-1-0-7-7-3
-3-0-1-2-3-3-3-5-3-2/3-0-12-0-3-0-1-2-3-3-3-2---5-1-1-1-4/5-5-1-1-------1-5-4-3
-4-0-2-3-4---------3/4-0-12-0-4-0-2-3-4-----2-----0-2-2-4/5-5-0-2-------2-6-5-0
-------------------------12-----------------2-----2-0-0-4/5-5-2-0-------0-5-4-0

-5-6-7-5-3-2-1-3-0-3-7-5-3-0-3/9-7-5-4-3-5-2-7-5
-4-5-6-6-3-2-1-1-1-1-5-5-1-1-2/8-5-5-4-3-5-1-5-3
-5-6-7-7-4-3-2-2-0-0-5-5-0-0-3/9-6-6-5-4-6-2-5-5
-3-4-5-5-3-2-1-1-2-2-5-5-2-2-1/7-5-5-4-3-5-0-5-4

H
-----------7-2-5-3----------------------7-2-5-3---3-2-3-4/5-5-3-2-3-2-1-0-7-7-3-2-0
-3-0-1-2-3-3-3-5-3-2/3-0-12-0-3-0-1-2-3-3-3-2---5-1-1-1-4/5-5-1-1-------1-5-4-3-0-0
-4-0-2-3-4---------3/4-0-12-0-4-0-2-3-4-----2-----0-2-2-4/5-5-0-2-------2-6-5-0-1-1
-------------------------12-----------------2-----2-0-0-4/5-5-2-0-------0-5-4-0-2-2

-7-7-3-7-7-6-5-3-5-3-0-0-0-0-0-0-0-2-3-5-6-7-------2
-5-4-3-5-5-4-0-0-0-0-5-3-0-3-0-2-3-1-1-6-7-8-1-2-3-3
-6-5-0-7-6-5-0-0-0-0-0-0-0-0-0-0-0-2-2-5-6-7-2-3-4-0
-5-4-0-6-5-4-0-0-0-0-0-0-0-0-0-2-2-0-0-------------0


Aperçu du document air ukulele villaverde.pdf - page 1/1

Documents similaires


air ukulele villaverde
playlist 1
canciones2018 2019
programme de vaillant
la cibi fait sont cinema par dundee33
bg s pedals


Sur le même sujet..