Rock'n'Roll Led Zepplin  Tab .pdf


Nom original: Rock'n'Roll Led Zepplin - Tab.pdfTitre: Tab Rock'n'Roll Led Zepplin - Bloc-notesAuteur: Panisse

Ce document au format PDF 1.4 a été généré par PDFCreator Version 1.3.2 / GPL Ghostscript 9.05, et a été envoyé sur fichier-pdf.fr le 30/04/2012 à 17:44, depuis l'adresse IP 90.48.x.x. La présente page de téléchargement du fichier a été vue 593 fois.
Taille du document: 10 Ko (1 page).
Confidentialité: fichier public


Aperçu du document


Difficulté : 4/10
riff en La
|------------------------|--------------------------|
|------------------------|--------------------------|
|------------------------|--------------------------|
|-2--2-----2--5^2--4-----|-----2--4--2--2--2--4--2--|
|-0--0--4--0--0----0--3'-|-(3)-0--0--0--0--0--0--0--|
|------------------------|--------------------------|
riff en Ré
|------------------------|--------------------------|
|------------------------|--------------------------|
|-2--2-----2--5^2--4-----|-----2--4--2--2--2--4--2--|
|-0--0--4--0--0----0--3'-|-(3)-0--0--0--0--0--0--0--|
|------------------------|--------------------------|
|------------------------|--------------------------|
riff en Mi
|---------------------------------------------------|
|------------------------|--------------------------||------------------------|--------------------------|
|------------------------|--------------------------|
|-2--2-----2--5^2--4-----|-----2--4--2--2--2--4--2--|
|-0--0--4--0--0----0--3'-|-(3)-0--0--0--0--0--0--0--|
| LA| La| Ré| La| Mi| La|
couplet en La
|-----------------|
|-----------------|
|-----2-----------| play 3
|-----2-----------| times
|-----0-----------| <---|--3--------------|

|------------------|
|------------------|
|-----2-----2------|
|-----2-----2------|
|-----0-----0------|
|--3-----3-----3^0-|

Couplet en Ré
|-----------------|
|-----3-----------| play 3
|-----2-----------| times
|-----0-----------| <---|--3--------------|
|-----------------|

|------------------|
|-----3-----3------|
|---- en Mi-2-----2------|
|-----0-----0------|
|--3-----3-----3^0-|
|------------------|

Couplet en Mi
|--------------------------|--------------------------|------------|
|--------------------------|--------------------------|------------|
|--------------------------|--------------------------|------------|
|--9--9--11-9--9--9--11-9--|--9--9--11-9--9--9--11-9--|--7---------|
|--7--7--7--7--7--7--7--7--|--7--7--7--7--7--7--7--7--|--5---------|
|--------------------------|--------------------------|------------|
Fin La7
|--------------------------------------------------------------------------|
|--5-----------------------------------------------------------------------|
|--x-----------------------------------------------------------------------|
|--5---------------------------5^7^5-7^5----5------------------------------|
|--4--------3^5^3------3-5/7-------------0-----------------------5---------|
|-------5---------3^5------------------------------------------------------|


Aperçu du document Rock'n'Roll Led Zepplin - Tab.pdf - page 1/1




Télécharger le fichier (PDF)


Rock'n'Roll Led Zepplin - Tab.pdf (PDF, 10 Ko)

Télécharger
Formats alternatifs: ZIP



Documents similaires


rock n roll led zepplin tab
rock n roll led zepplin tab
fichier pdf sans nom 3
wind of changes
gotta keep praying
51

Sur le même sujet..