Aïcha BASSE .pdf


Nom original: Aïcha-BASSE.pdf

Ce document au format PDF 1.4 a été généré par Writer / OpenOffice 4.1.0, et a été envoyé sur fichier-pdf.fr le 02/10/2017 à 19:55, depuis l'adresse IP 92.142.x.x. La présente page de téléchargement du fichier a été vue 292 fois.
Taille du document: 29 Ko (3 pages).
Confidentialité: fichier public


Aperçu du document


BASSE

AICHA
KHALED
INTRO:
(guitar and keyboard, then bass starts playin' ...)
|--------------------------------|--------------------------------------|
|--------------------------------|--------------------------------------|
|----3-4---4-------4-6-----------|----3-4---4-------3-3-4-6---6---|
|1-----------6-4---------6-6-4---|1-----------6-4---------------6---|

VERSE:
Comme si j'n'existais pas Elle est passee a cote de moi
|--------------------------------|--------------------------------------|
|--------------------------------|--------------------------------------|
|----3-4---4-------4-6-----------|----3-4---4-------3-3-4-6---6---|
|1-----------6-4---------6-6-4---|1-----------6-4---------------6---|

Sans un regard, Reine de Sabbat J'ai dit, Aicha, prends, tout est pour toi
|--------------------------------|--------------------------------------|
|--------------------------------|--------------------------------------|
|----3-4---4-------4-6-----------|----3-4---4-------3-3-4-6---6---|
|1-----------6-4---------6-6-4---|1-----------6-4---------------6---|

Voici, les perles, les bijoux
Aussi, l'or autour de ton cou
Les fruits, bien murs au gout de miel
Ma vie, Aicha si tu m'aimes
J'irai a ton souffle nous mene
Dans les pays d'ivoire et d'ebene
J'effacerai tes larmes, tes peines
Rien n'est trop beau pour une si belle
REFRAIN:

Oooh ! Aicha, Aicha, ecoute-moi Aicha, Aicha, t'en vas pas
|--------------------------------|--------------------------------|
|--------------------------------|--------------------------------|
|----3---4-------3---4---6-------|----3---4-------3---4---6-------|
|1-----------4---------------6---|1-----------4---------------6---|
Aicha, Aicha, regarde-moi Aicha, Aicha, reponds-moi
|--------------------------------|--------------------------------|
|--------------------------------|--------------------------------|
|----3---4-------3---4---6-------|----3---4-------3---4---6-------|
|1-----------4---------------6---|1-----------4---------------6---|

VERSE:
Je dirai les mots des poemes
Je jouerai les musiques du ciel
Je prendrai les rayons du soleil
Pour eclairer tes yeux de reine

REFRAIN:
Oooh ! Aicha, Aicha, ecoute-moi
Aicha, Aicha, t'en vas pas

BRIDGE:
Elle a dit, garde tes tresors Moi, je vaux mieux que tout ca
|--------------------------------|--------------------------------|
|--------------------------------|--------------------------------|
|--------------------------------|--------------8-9---8---6---6-9-|
|6---4-6---4---2---1-2---4---6---|4-6---4---2---------------------|
Des barreaux forts, des barreaux meme en or
Je veux les memes droits que toi
Et du respect pour chaque jour
|--------------------------------|--------------------------------|
|------6---6---------------------|----------------------------4---|
|8-9-6---------6---------6-8---6-|8---8---------------------------|
|------------------4---4---------|--8---4-6---4-6---4---2---2---2-|

Moi je ne veux que de l'amour Aaaah !
|--------------------------------|--------------------------------|
|4---------4---4-----------------|--------------------------------|
|--4-6---6---6-------------------|--------------------------------|
|--------------------------------|--7---3-1-----------------------|

(guitar solo...)
VERSE:
C'est Comme si ... (?)
REFRAIN:


Aperçu du document Aïcha-BASSE.pdf - page 1/3

Aperçu du document Aïcha-BASSE.pdf - page 2/3

Aperçu du document Aïcha-BASSE.pdf - page 3/3




Télécharger le fichier (PDF)


Aïcha-BASSE.pdf (PDF, 29 Ko)

Télécharger
Formats alternatifs: ZIP



Documents similaires


aecha basse
aicha chant
aecha guitare
comm un avion sans ailes
comm un avion sans ailes 1
partie 1 11

Sur le même sujet..