Arpège de la Plage .pdf


Nom original: Arpège de la Plage.pdfTitre: Arpège de le PlageAuteur: Marie-Claire

Ce document au format PDF 1.5 a été généré par Conv2pdf.com, et a été envoyé sur fichier-pdf.fr le 19/10/2017 à 16:36, depuis l'adresse IP 176.141.x.x. La présente page de téléchargement du fichier a été vue 662 fois.
Taille du document: 29 Ko (2 pages).
Confidentialité: fichier public


Aperçu du document


Arpège de la Plage
Capo 3

C
C
Am
Am
e|-----------------------------|------------------------------|B|---1-------1-----1-------1---|---1-------1-----1-------1----|G|-------0-------------0-------|--------2------------2--------|D|-----2-------------2---------|------2------------2----------|A|---3-----3—-3----3-----3--3--|---0-----0—-0----0-----0—-----|E|-----------------------------|------------------------------|C
C
Am
Am
e|-----------------------------|------------------------------|B|---1-------1-----1-------1---|---1-------1-----1-------1----|G|-------0-------------0-------|--------2------------2--------|D|-----2-------------2---------|------2------------2----------|A|---3-----3—-3----3-----3--3--|---0-----0—-0----0-----0—-----|E|-----------------------------|------------------------------|Dm
Dm
G
e|-------------------------1---|----------3p0---|
B|---3-------3-----3---------3-|---3------------|
G|-------2-------------2-------|-------0--------|
D|-----0-------------0---------|-----0----------|
A|---0-----0--0----0-----0-----|---2-----3------|
E|-----------------------------|----------------|
C
C
Am
Am
e|-----------------------------|------------------------------|B|---1-------1-----1-------1---|---1-------1-----1-------1----|G|-------0-------------0-------|--------2------------2--------|D|-----2-------------2---------|------2------------2----------|A|---3-----3—-3----3-----3--3--|---0-----0—-0----0-----0—-----|E|-----------------------------|------------------------------|C
C
Am
Am
e|-----------------------------|------------------------------|B|---1-------1-----1-------1---|---1-------1-----1-------1----|G|-------0-------------0-------|--------2------------2--------|D|-----2-------------2---------|------2------------2----------|A|---3-----3—-3----3-----3--3--|---0-----0—-0----0-----0—-----|E|-----------------------------|------------------------------|Dm
Dm
Cadd9
C
e|-------------------------1---|-----------3-------------0----|
B|---3-------3-----3---------3-|---3---------3-----------1----|
G|-------2-------------2-------|-------0-------0---------0----|
D|-----0-------------0---------|-----2-----------2-------2----|
A|---0-----0--0----0-----0-----|---3-----3---------3-----3----|
E|-----------------------------|-------------------------x----|


Aperçu du document Arpège de la Plage.pdf - page 1/2

Aperçu du document Arpège de la Plage.pdf - page 2/2




Télécharger le fichier (PDF)


Télécharger
Formats alternatifs: ZIP Texte



Documents similaires


fiche produit 1 1
brochure de presentation centre d affaires paris trocadero
livret edition 2013 version n 5 1
courcon programme2013 web
methode violon2a
audiomat arpege ref 10

Sur le même sujet..




🚀  Page générée en 0.009s