TAB Fire .pdf



Nom original: TAB Fire.pdf

Ce document au format PDF 1.4 a été généré par Writer / OpenOffice 4.1.1, et a été envoyé sur fichier-pdf.fr le 26/11/2017 à 10:35, depuis l'adresse IP 77.201.x.x. La présente page de téléchargement du fichier a été vue 1702 fois.
Taille du document: 35 Ko (5 pages).
Confidentialité: fichier public


Aperçu du document


FIRE
Last Train
Tuning : D G C F A D
(descendre toutes les cordes d'un ton par rapport à l'accordage Standard, vous pouvez
vous aider d'un accordeur)
Pour gratter les cordes, je n'utilise pas de paterne, uniquement mon oreille, donc je ne
peux pas vous aider sur ce point (déso).
Il s'agit de ma version de la chanson, n'hésitez pas ré-écouter ma reprise sur YouTube
pour vous aider.
[INTRO]
E B A E x2
E
B
d|---0-------------|---2-------------|
A|---0-------------|---4-------------|
F|---1-------------|---4-------------|
C|---2-------------|---2-------------|
G|---2-------------|---2-------------|
D|---0-------------|---2-------------|
A
E
d|---0-------------|---0-------------|
A|---3-------------|---0-------------|
F|---3-------------|---1-------------|
C|---3-------------|---2-------------|
G|---0-------------|---2-------------|
D|-----------------|---0-------------|

[COUPLET]
E B A E
E
B
d|---0-------------|---2-------------|
A|---0-------------|---4-------------|
F|---1-------------|---4-------------|
C|---2-------------|---2-------------|
G|---2-------------|---2-------------|
D|---0-------------|---2-------------|
A
E
d|---0-------------|---0-------------|
A|---3-------------|---0-------------|
F|---3-------------|---1-------------|
C|---3-------------|---2-------------|
G|---0-------------|---2-------------|
D|-----------------|---0-------------|
E
When we leave,
B
these miles behind us,
A
E
We see the fire on the mountain,
B
We see the fire,
A
Holy Fire.

[REFRAINT] (le refraint est instrumental)
E
D
A
d|---0-------------|---3---0---------|
A|---0-------------|---2---3---------|
F|---1-------------|---3---3---------|
C|---2-------------|---0---3---------|
G|---2-------------|-------0---------|
D|---0-------------|------------0-3--| x3
E
D
A (laissez sonner le A)
d|---0-------------|---3---0---------|
A|---0-------------|---2---3---------|
F|---1-------------|---3---3---------|
C|---2-------------|---0---3---------|
G|---2-------------|-------0---------|
D|---0-------------|-----------------|
[COUPLET]
E
As we run,
B
the top's coming down,
A
And the flamme,
E
keeps on shining

E
As we crowl,
B
All things are falling,
A
E
And our shadows become silver lighting,
B
All smokes go up,
A (ne pas laisser sonner)
All minds go down,

And it keeps on burning.
[REFRAIN]
E
D
A
d|---0-------------|---3---0---------|
A|---0-------------|---2---3---------|
F|---1-------------|---3---3---------|
C|---2-------------|---0---3---------|
G|---2-------------|-------0---------|
D|---0-------------|------------0-3--| x3

E
D
A
d|---0-------------|---3---0---------|
A|---0-------------|---2---3---------|
F|---1-------------|---3---3---------|
C|---2-------------|---0---3---------|
G|---2-------------|-------0---------|
D|---0-------------|-----------------|
[TRANSITION]
D
A (jouez les accords en arpèges si possible)
d|---3-------------|---0-------------|
A|---2-------------|---3-------------|
F|---3-------------|---3-------------|
C|---0-------------|---3-------------|
G|-----------------|---0-------------|
D|-----------------|-----------------| x2

[PONT]
E E (ne pas laisser sonner)
d|---0-0-----------|
A|---0-0-----------|
F|---1-1-----------|
C|---2-2-----------|
G|---2-2-----------|
D|---0-0-----------|
Ici se situe le premier solo, je ne le connais donc j'improvise aussi longtemps que je le
souhaite puis je joue une petite outro afin de cloturer le pont.
E
d|---0---------------------------|
A|---0---------------------------|
F|---1---------------------------|
C|---2---------------------------|
G|---2-----------------5-5--6----|
D|---0--3--4--5--6--7------------|
[COUPLET]
E
When we left,
B
These miles behind us,
A
E
We saw the mountains facing each other,
B
A
E
And now all the mountains, are gone, gone in the fire.
B
A (laisser sonner)
Oh Holy Fire ! Holy Fire !

[PRE-OUTRO]
E
D
d|------------------|------------------|
A|------------------|------------------|
F|------------------|------------------|
C|------9---------9-|------7---------7-|
G|-7--7----7-7--7---|-5--5----5-5--5---|
D|------------------|------------------|
A
E
d|------------------|------------------|
A|------------------|------------------|
F|------------------|------------------|
C|------------------|------9---------9-|
G|------7---------7-|-7--7----7-7--7---|
D|-5--5----5-5--5---|------------------| Jouez cette suite (E D A E) x4
Une guitare soliste en fond peut faire un second solo ici. Puis vient la tournure.
E
D
d|---0-------------|---3-------------|
A|---0-------------|---2-------------|
F|---1-------------|---3-------------|
C|---2-------------|---0-------------|
G|---2-------------|-----------------|
D|---0-------------|-----------------|
A
E (grattez en continu)
d|---0-------------|---0-------------|
A|---3-------------|---0-------------|
F|---3-------------|---1-------------|
C|---3-------------|---2-------------|
G|---0-------------|---2-------------|
D|-----------------|---0-------------|
D
A
E
We saw the mountains, black, black as a feather,
D
A
E
Now all the mountains, are gone in the fire.

Holy Fire !
D
A
d|---3-------------|---0-------------|
A|---2-------------|---3-------------|
F|---3-------------|---3-------------|
C|---0-------------|---3-------------|
G|-----------------|---0-------------|
D|-----------------|------------0-3--|

[OUTRO]
E
E
d|---0-------------|---0-------------|
A|---0-------------|---0-------------|
F|---1-------------|---1-------------|
C|---2-------------|---2-------------|
G|---2-------------|---2-------------|
D|---0-------------|---0-------------|
D
A
d|---3-------------|---0-------------|
A|---2-------------|---3-------------|
F|---3-------------|---3-------------|
C|---0-------------|---3-------------|
G|-----------------|---0-------------|
D|-----------------|------------0-3--|
Jouez cette boucle autant de fois que vous le désirez, un dernier solo peut également
être jouer ici comme dans l'enregistrement original. Puis vient la tournure.
E
E
d|---0-------------|---0-------------|
A|---0-------------|---0-------------|
F|---1-------------|---1-------------|
C|---2-------------|---2-------------|
G|---2-------------|---2-------------|
D|---0-------------|---0-------------|
D
A (laissez sonner les accords tout en ralentissant)
d|---3-------------|---0-------------|
A|---2-------------|---3-------------|
F|---3-------------|---3-------------|
C|---0-------------|---3-------------|
G|-----------------|---0-------------|
D|-----------------|-----------------|
E (plaquez cette ultime accord afin de cloturer la musique)
d|---0-------------|
A|---0-------------|
F|---1-------------|
C|---2-------------|
G|---2-------------|
D|---0-------------|
(PS :Vous pouvez le jouer à l'envers, en démarrant par la corde la plus aïgue et en
allant vers la corde la plus grave : cela donnera un effet sympathique.)
Et voilà, vous savez jouer « Fire » de Last Train.
Merci d'avoir regardé ma reprise, j'espère que vous avez aimé ! On se voit au prochain
concert du groupe !
Bisous <3
Nint.


Aperçu du document TAB Fire.pdf - page 1/5

Aperçu du document TAB Fire.pdf - page 2/5

Aperçu du document TAB Fire.pdf - page 3/5

Aperçu du document TAB Fire.pdf - page 4/5

Aperçu du document TAB Fire.pdf - page 5/5




Télécharger le fichier (PDF)


TAB Fire.pdf (PDF, 35 Ko)

Télécharger
Formats alternatifs: ZIP




Documents similaires


tab fire
n ap chill magazine aout 2013
little dolls
dunkerque
traffic girl
leila

🚀  Page générée en 0.016s