Aux sombres héros de l'amer .pdf



Nom original: Aux sombres héros de l'amer.pdfAuteur: oli oli

Ce document au format PDF 1.4 a été généré par Writer / OpenOffice 4.1.8, et a été envoyé sur fichier-pdf.fr le 23/01/2021 à 12:12, depuis l'adresse IP 78.230.x.x. La présente page de téléchargement du fichier a été vue 27 fois.
Taille du document: 35 Ko (5 pages).
Confidentialité: fichier public


Aperçu du document


[Intro]

G|--------------------------|--------------------------|
D|-----------2--5--3--3-2---|-----------2--5--3--3-2---|
A|-0---2-3----------------3-|-0---2-3----------------3-|
E|--------------------------|--------------------------|

[Pre-Chorus] 0:13

"Aux sombres héros..."
G|--------------------------|--------------------------|
D|-----------2--5-----------|-----------2--5-----------|
A|-0---2-3---------3--3-3-2-|-0---2-3---------3--3-3-2-|
E|--------------------------|--------------------------|

[Chorus] 0:24

"Always lost..."
G|--------------------------|--------------------------|
D|-----------------3--3-2---|-----------------3--3-2---|
A|-0---2-3--3-5--5--------3-|-0---2-3--3-5--5--------3-|
E|--------------------------|--------------------------|

[Verse 1]

"Tout part toujours..."
G|--------------------------|--------------------------|
D|-----------2--5-----------|-----------2--5-----------|
A|-0---2-3---------3--3-3-2-|-0---2-3---------3--3-3-2-|
E|--------------------------|--------------------------|

[Chorus] 0:47

G|--------------------------|--------------------------|
D|-----------------3--3-2---|-----------------3--3-2---|
A|-0---2-3--3-5--5--------3-|-0---2-3--3-5--5--------3-|
E|--------------------------|--------------------------|

G|--------------------------|--------------------------|
D|-----------------3--3-2---|-----------------3--3-2---|
A|-0---2-3--3-5--5--------3-|-0---2-3--3-5--5--------3-|
E|--------------------------|--------------------------|

[Solo] 1:10

G|--------------------------|--------------------------|
D|-----------2--5--3--3-2---|-----------2--5--3--3-2---|

A|-0---2-3----------------3-|-0---2-3----------------3-|
E|--------------------------|--------------------------|

G|--------------------------|--------------------------|
D|-----------2--5--3--3-2---|-----------2--5--3--------|
A|-0---2-3----------------3-|-0---2-3------------------|
E|--------------------------|--------------------------|

[Verse 2]

"Ami qu'on crève..."
G|--------------------------|--------------------------|
D|-----------2--5-----------|-----------2--5-----------|
A|-0---2-3---------3--3-3-2-|-0---2-3---------3--3-3-2-|
E|--------------------------|--------------------------|

[Pre-Chorus]

"Aux sombres héros..."
G|--------------------------|--------------------------|
D|-----------2--5-----------|-----------2--5-----------|
A|-0---2-3---------3--3-3-2-|-0---2-3---------3--3-3-2-|
E|--------------------------|--------------------------|

[Chorus] 1:56

"Always lost..."
G|--------------------------|--------------------------|
D|-----------------3--3-2---|-----------------3--3-2---|
A|-0---2-3--3-5--5--------3-|-0---2-3--3-5--5--------3-|
E|--------------------------|--------------------------|

[Solo] 2:07

G|--------------------------|--------------------------|
D|-----------2--5--3--3-2---|-----------2--5--3--3-2---|
A|-0---2-3----------------3-|-0---2-3----------------3-|
E|--------------------------|--------------------------|

G|--------------------------|--------------------------|
D|-----------2--5--3--3-2---|-----------2--5--3--------|
A|-0---2-3----------------3-|-0---2-3------------------|
E|--------------------------|--------------------------|

[Chorus] 2:30

"Always lost..."

G|--------------------------|--------------------------|
D|-----------------3--3-2---|-----------------3--3-2---|
A|-0---2-3--3-5--5--------3-|-0---2-3--3-5--5--------3-|
E|--------------------------|--------------------------|

G|--------------------------|--------------------------|--------------------------|
D|-----------------3--3-2---|-----------------3--3-2---|--------------------------|
A|-0---2-3--3-5--5--------3-|-0---2-3--3-5--5--------3-|-0------------------------|
E|--------------------------|--------------------------|--------------------------|


Aperçu du document Aux sombres héros de l'amer.pdf - page 1/5

Aperçu du document Aux sombres héros de l'amer.pdf - page 2/5

Aperçu du document Aux sombres héros de l'amer.pdf - page 3/5

Aperçu du document Aux sombres héros de l'amer.pdf - page 4/5

Aperçu du document Aux sombres héros de l'amer.pdf - page 5/5




Télécharger le fichier (PDF)


Aux sombres héros de l'amer.pdf (PDF, 35 Ko)

Télécharger
Formats alternatifs: ZIP



Documents similaires


aux sombres heros de lamer
paint it black bass
brick by boring brick
the doors   peace frog
michel fugain une belle histoire lyrics chords
back from cali bass