Aux sombres héros de l'amer.pdf


Aperçu du fichier PDF aux-sombres-heros-de-lamer.pdf - page 1/5

Page 1 2 3 4 5



Aperçu texte


[Intro]

G|--------------------------|--------------------------|
D|-----------2--5--3--3-2---|-----------2--5--3--3-2---|
A|-0---2-3----------------3-|-0---2-3----------------3-|
E|--------------------------|--------------------------|

[Pre-Chorus] 0:13

"Aux sombres héros..."
G|--------------------------|--------------------------|
D|-----------2--5-----------|-----------2--5-----------|
A|-0---2-3---------3--3-3-2-|-0---2-3---------3--3-3-2-|
E|--------------------------|--------------------------|

[Chorus] 0:24

"Always lost..."
G|--------------------------|--------------------------|
D|-----------------3--3-2---|-----------------3--3-2---|
A|-0---2-3--3-5--5--------3-|-0---2-3--3-5--5--------3-|
E|--------------------------|--------------------------|