Motörhead HEROES .pdf


Nom original: Motörhead-HEROES.pdf
Auteur: oli oli

Ce document au format PDF 1.4 a été généré par Writer / OpenOffice 4.1.8, et a été envoyé sur fichier-pdf.fr le 13/03/2021 à 15:39, depuis l'adresse IP 78.230.x.x. La présente page de téléchargement du fichier a été vue 86 fois.
Taille du document: 71 Ko (2 pages).
Confidentialité: fichier public


Aperçu du document


Motörhead - "HEROES"
Couplet :
G----------|----------------|
D----------|----------------|
A--4--(X15)|-----------1-2--|
E----------|--2--(X13)------|

(X4)

Refrain :
G---------------------------------------------------|-D---------------------------------------------------|-A--2--(X15)---4--(X15)------------6--(X8)--4--(X15)-|-E------------------------4--(X8)--------------------|--

Transition :
G------------------|-------------------|-----------|
D------1---2---2-3-|-------------------|-----------|
A--2-2---2---2-----|------1---2---2-3--|--4--(X15)-|
E------------------|--2-2---2---2------|-----------|
<------------------couplet/refrain/transition à jouer 2 fois --------------->

Solo :
G----------|----------------|
D----------|----------------|
A--4--(X15)|-----------1-2--|
E----------|--2--(X13)------|

(X2)

Couplet :
G----------|----------------|
D----------|----------------|
A--4--(X15)|-----------1-2--|
E----------|--2--(X13)------|

(X4)

Refrain :
G---------------------------------------------------|-D---------------------------------------------------|-A--2--(X15)---4--(X15)------------6--(X8)--4--(X15)-|-E------------------------4--(X8)--------------------|--

Transition :
G------------------|-------------------|-----------|
D------1---2---2-3-|-------------------|-----------|
A--2-2---2---2-----|------1---2---2-3--|--4--(X15)-|
E------------------|--2-2---2---2------|-----------|
<------------------couplet/refrain/transition à jouer 1 fois --------------->

Fin :
G----------|----------------|
D----------|----------------|
A--4--(X15)|-----------1-2--|
E----------|--2--(X13)------|

(X3)

https://www.youtube.com/channel/UCbbU2iMDvb4a7OZRGU3vVkg


Aperçu du document Motörhead-HEROES.pdf - page 1/2

Aperçu du document Motörhead-HEROES.pdf - page 2/2




Télécharger le fichier (PDF)




Sur le même sujet..





Ce fichier a été mis en ligne par un utilisateur du site. Identifiant unique du document: 01964239.
⚠️  Signaler un contenu illicite
Pour plus d'informations sur notre politique de lutte contre la diffusion illicite de contenus protégés par droit d'auteur, consultez notre page dédiée.